0
SECTION
2
HEADER
9
$ANGDIR
70
0
9
$CHAMFERA
40
10
9
$CHAMFERB
40
10
9
$CLAYER
8
Layer_1
9
$EXTMAX
10
121.008
20
92.5
9
$EXTMIN
10
18.9924
20
17.5
9
$LIMMAX
10
420
20
297
9
$LIMMIN
10
0
20
0
9
$LTSCALE
40
10
9
$PLINEGEN
70
0
9
$TEXTSIZE
40
20
9
$GRIDUNIT
10
10
20
10
9
$SNAPUNIT
10
5
20
5
0
ENDSEC
0
SECTION
2
TABLES
0
TABLE
2
STYLE
70
1
0
STYLE
2
STANDARD
70
0
40
0
41
1
50
0
71
0
42
0.2
3
txt
4

0
ENDTAB
0
TABLE
2
LTYPE
70
14
0
LTYPE
2
CONTINUOUS
70
0
3
Solid line
72
65
73
0
40
0
0
LTYPE
2
DOT
70
0
3
............................................
72
65
73
2
40
0.25
49
0
49
-0.25
0
LTYPE
2
HIDDEN
70
0
3
_ _ _ _ _ _ _ _ _ _ _ _ _ _ _ _ _ _ _ _ _ _ 
72
65
73
2
40
0.375
49
0.25
49
-0.125
0
LTYPE
2
TSLONGDASH
70
0
3
__ __ __ __ __ __ __ __ __ __ __ __ __ __ _ 
72
65
73
2
40
1.28
49
1
49
-0.28
0
LTYPE
2
TSDASHDOT
70
0
3
______ . ______ . ______ . ______ . ______ .
72
65
73
4
40
1.28
49
1
49
-0.14
49
0
49
-0.14
0
LTYPE
2
TSCENTER
70
0
3
______ _ ______ _ ______ _ ______ _ ______ _
72
65
73
4
40
2
49
1.5
49
-0.18
49
0.14
49
-0.18
0
LTYPE
2
TSPHANTOM
70
0
3
_____ _ _ _____ _ _ _____ _ _ _____ _ _ ____
72
65
73
6
40
2.5
49
1.63
49
-0.19
49
0.15
49
-0.19
49
0.15
49
-0.19
0
LTYPE
2
DASHED
70
0
3
__ __ __ __ __ __ __ __ __ __ __ __ __ __ __
72
65
73
2
40
0.75
49
0.5
49
-0.25
0
LTYPE
2
CENTER
70
0
3
____ _ ____ _ ____ _ ____ _ ____ _ ____ _ __
72
65
73
4
40
2
49
1.25
49
-0.25
49
0.25
49
-0.25
0
LTYPE
2
PHANTOM
70
0
3
_____ _ _ _____ _ _ _____ _ _ _____ _ _ ____
72
65
73
6
40
2.5
49
1.25
49
-0.25
49
0.25
49
-0.25
49
0.25
49
-0.25
0
LTYPE
2
DASHDOT
70
0
3
__ . __ . __ . __ . __ . __ . __ . __ . __ .
72
65
73
4
40
1
49
0.5
49
-0.25
49
0
49
-0.25
0
LTYPE
2
BORDER
70
0
3
__ __ . __ __ . __ __ . __ __ . __ __ . __ _
72
65
73
6
40
1.75
49
0.5
49
-0.25
49
0.5
49
-0.25
49
0
49
-0.25
0
LTYPE
2
DIVIDE
70
0
3
__ . . __ . . __ . . __ . . __ . . __ . . __
72
65
73
6
40
1.25
49
0.5
49
-0.25
49
0
49
-0.25
49
0
49
-0.25
0
ENDTAB
0
TABLE
2
LAYER
70
3
0
LAYER
2
Layer_1
70
0
62
7
6
CONTINUOUS
0
LAYER
2
Layer_2
70
0
62
7
6
CONTINUOUS
0
LAYER
2
Layer_3
70
0
62
7
6
CONTINUOUS
0
ENDTAB
0
ENDSEC
0
SECTION
2
ENTITIES
0
ARC
8
Layer_1
6
CONTINUOUS
62
7
10
70
20
75
40
6
50
202.024
51
337.976
0
ARC
8
Layer_1
6
CONTINUOUS
62
7
10
70
20
75
40
6
50
22.0243
51
157.976
0
ARC
8
Layer_1
6
CONTINUOUS
62
7
10
70
20
75
40
16
50
237.769
51
302.231
0
ARC
8
Layer_1
6
CONTINUOUS
62
7
10
70
20
75
40
16
50
57.769
51
122.231
0
LINE
8
Layer_1
6
CONTINUOUS
62
7
10
91.7868
20
82
11
114.508
21
82
0
LINE
8
Layer_1
6
CONTINUOUS
62
7
10
48.2132
20
82
11
25.4924
21
82
0
LINE
8
Layer_1
6
CONTINUOUS
62
7
10
114.508
20
68
11
91.7868
21
68
0
LINE
8
Layer_1
6
CONTINUOUS
62
7
10
119.508
20
77
11
119.508
21
73
0
LINE
8
Layer_1
6
CONTINUOUS
62
7
10
20.4924
20
77
11
20.4924
21
73
0
LINE
8
Layer_1
6
CONTINUOUS
62
7
10
78.5333
20
88.5345
11
86.4534
21
83.5409
0
LINE
8
Layer_1
6
CONTINUOUS
62
7
10
78.5333
20
61.4655
11
86.4534
21
66.4591
0
LINE
8
Layer_1
6
CONTINUOUS
62
7
10
61.4667
20
88.5345
11
53.5466
21
83.5409
0
LINE
8
Layer_1
6
CONTINUOUS
62
7
10
61.4667
20
61.4655
11
53.5466
21
66.4591
0
ARC
8
Layer_1
6
CONTINUOUS
62
7
10
91.7868
20
92
40
10
50
237.769
51
270
0
ARC
8
Layer_1
6
CONTINUOUS
62
7
10
91.7868
20
58
40
10
50
90
51
122.231
0
LINE
8
Layer_1
6
CONTINUOUS
62
7
10
25.4924
20
68
11
48.2132
21
68
0
ARC
8
Layer_1
6
CONTINUOUS
62
7
10
48.2132
20
92
40
10
50
270
51
302.231
0
ARC
8
Layer_1
6
CONTINUOUS
62
7
10
48.2132
20
58
40
10
50
57.769
51
90
0
ARC
8
Layer_1
6
CONTINUOUS
62
7
10
25.4924
20
77
40
5
50
90
51
180
0
ARC
8
Layer_1
6
CONTINUOUS
62
7
10
25.4924
20
73
40
5
50
180
51
270
0
ARC
8
Layer_1
6
CONTINUOUS
62
7
10
114.508
20
73
40
5
50
270
51
0
0
ARC
8
Layer_1
6
CONTINUOUS
62
7
10
114.508
20
77
40
5
50
0
51
90
0
ARC
8
Layer_1
6
CONTINUOUS
62
7
10
70
20
35
40
16
50
237.769
51
302.231
0
ARC
8
Layer_1
6
CONTINUOUS
62
7
10
70
20
35
40
16
50
57.769
51
122.231
0
LINE
8
Layer_1
6
CONTINUOUS
62
7
10
91.7868
20
42
11
114.508
21
42
0
LINE
8
Layer_1
6
CONTINUOUS
62
7
10
48.2132
20
42
11
25.4924
21
42
0
LINE
8
Layer_1
6
CONTINUOUS
62
7
10
114.508
20
28
11
91.7868
21
28
0
LINE
8
Layer_1
6
CONTINUOUS
62
7
10
119.508
20
37
11
119.508
21
33
0
LINE
8
Layer_1
6
CONTINUOUS
62
7
10
20.4924
20
37
11
20.4924
21
33
0
LINE
8
Layer_1
6
CONTINUOUS
62
7
10
78.5333
20
48.5345
11
86.4534
21
43.5409
0
LINE
8
Layer_1
6
CONTINUOUS
62
7
10
78.5333
20
21.4655
11
86.4534
21
26.4591
0
LINE
8
Layer_1
6
CONTINUOUS
62
7
10
61.4667
20
48.5345
11
53.5466
21
43.5409
0
LINE
8
Layer_1
6
CONTINUOUS
62
7
10
61.4667
20
21.4655
11
53.5466
21
26.4591
0
ARC
8
Layer_1
6
CONTINUOUS
62
7
10
91.7868
20
52
40
10
50
237.769
51
270
0
ARC
8
Layer_1
6
CONTINUOUS
62
7
10
91.7868
20
18
40
10
50
90
51
122.231
0
LINE
8
Layer_1
6
CONTINUOUS
62
7
10
25.4924
20
28
11
48.2132
21
28
0
ARC
8
Layer_1
6
CONTINUOUS
62
7
10
48.2132
20
52
40
10
50
270
51
302.231
0
ARC
8
Layer_1
6
CONTINUOUS
62
7
10
48.2132
20
18
40
10
50
57.769
51
90
0
ARC
8
Layer_1
6
CONTINUOUS
62
7
10
25.4924
20
37
40
5
50
90
51
180
0
ARC
8
Layer_1
6
CONTINUOUS
62
7
10
25.4924
20
33
40
5
50
180
51
270
0
ARC
8
Layer_1
6
CONTINUOUS
62
7
10
114.508
20
33
40
5
50
270
51
0
0
ARC
8
Layer_1
6
CONTINUOUS
62
7
10
114.508
20
37
40
5
50
0
51
90
0
CIRCLE
8
Layer_1
6
CONTINUOUS
62
7
10
70
20
35
40
3
0
CIRCLE
8
Layer_1
6
CONTINUOUS
62
1
10
70
20
35
40
1.5
0
LINE
8
Layer_1
6
CONTINUOUS
62
3
10
30
20
43.5
11
25.4924
21
43.5
0
ARC
8
Layer_1
6
CONTINUOUS
62
3
10
25.4924
20
37
40
6.5
50
90
51
180
0
LINE
8
Layer_1
6
CONTINUOUS
62
3
10
18.9924
20
37
11
18.9924
21
33
0
ARC
8
Layer_1
6
CONTINUOUS
62
3
10
25.4924
20
33
40
6.5
50
180
51
270
0
LINE
8
Layer_1
6
CONTINUOUS
62
3
10
25.4924
20
26.5
11
48.2132
21
26.5
0
ARC
8
Layer_1
6
CONTINUOUS
62
3
10
48.2132
20
18
40
8.5
50
57.769
51
90
0
LINE
8
Layer_1
6
CONTINUOUS
62
3
10
52.7466
20
25.1902
11
60.6667
21
20.1967
0
ARC
8
Layer_1
6
CONTINUOUS
62
3
10
70
20
35
40
17.5
50
237.769
51
302.231
0
LINE
8
Layer_1
6
CONTINUOUS
62
3
10
79.3333
20
20.1967
11
87.2534
21
25.1902
0
ARC
8
Layer_1
6
CONTINUOUS
62
3
10
91.7868
20
18
40
8.5
50
90
51
122.231
0
LINE
8
Layer_1
6
CONTINUOUS
62
3
10
91.7868
20
26.5
11
100
21
26.5
0
LINE
8
Layer_1
6
CONTINUOUS
62
3
10
105
20
26.5
11
114.508
21
26.5
0
ARC
8
Layer_1
6
CONTINUOUS
62
3
10
114.508
20
33
40
6.5
50
270
51
0
0
LINE
8
Layer_1
6
CONTINUOUS
62
3
10
121.008
20
33
11
121.008
21
37
0
ARC
8
Layer_1
6
CONTINUOUS
62
3
10
114.508
20
37
40
6.5
50
0
51
90
0
LINE
8
Layer_1
6
CONTINUOUS
62
3
10
114.508
20
43.5
11
91.7868
21
43.5
0
ARC
8
Layer_1
6
CONTINUOUS
62
3
10
91.7868
20
52
40
8.5
50
237.769
51
270
0
LINE
8
Layer_1
6
CONTINUOUS
62
3
10
87.2534
20
44.8098
11
79.3333
21
49.8033
0
ARC
8
Layer_1
6
CONTINUOUS
62
3
10
70
20
35
40
17.5
50
57.769
51
122.231
0
LINE
8
Layer_1
6
CONTINUOUS
62
3
10
60.6667
20
49.8033
11
52.7466
21
44.8098
0
ARC
8
Layer_1
6
CONTINUOUS
62
3
10
48.2132
20
52
40
8.5
50
270
51
302.231
0
LINE
8
Layer_1
6
CONTINUOUS
62
3
10
48.2132
20
43.5
11
35
21
43.5
0
LINE
8
Layer_1
6
CONTINUOUS
62
3
10
30
20
83.5
11
25.4924
21
83.5
0
ARC
8
Layer_1
6
CONTINUOUS
62
3
10
25.4924
20
77
40
6.5
50
90
51
180
0
LINE
8
Layer_1
6
CONTINUOUS
62
3
10
18.9924
20
77
11
18.9924
21
73
0
ARC
8
Layer_1
6
CONTINUOUS
62
3
10
25.4924
20
73
40
6.5
50
180
51
270
0
LINE
8
Layer_1
6
CONTINUOUS
62
3
10
25.4924
20
66.5
11
48.2132
21
66.5
0
ARC
8
Layer_1
6
CONTINUOUS
62
3
10
48.2132
20
58
40
8.5
50
57.769
51
90
0
LINE
8
Layer_1
6
CONTINUOUS
62
3
10
52.7466
20
65.1902
11
60.6667
21
60.1967
0
ARC
8
Layer_1
6
CONTINUOUS
62
3
10
70
20
75
40
17.5
50
237.769
51
302.231
0
LINE
8
Layer_1
6
CONTINUOUS
62
3
10
79.3333
20
60.1967
11
87.2534
21
65.1902
0
ARC
8
Layer_1
6
CONTINUOUS
62
3
10
91.7868
20
58
40
8.5
50
90
51
122.231
0
LINE
8
Layer_1
6
CONTINUOUS
62
3
10
91.7868
20
66.5
11
100
21
66.5
0
LINE
8
Layer_1
6
CONTINUOUS
62
3
10
105
20
66.5
11
114.508
21
66.5
0
ARC
8
Layer_1
6
CONTINUOUS
62
3
10
114.508
20
73
40
6.5
50
270
51
0
0
LINE
8
Layer_1
6
CONTINUOUS
62
3
10
121.008
20
73
11
121.008
21
77
0
ARC
8
Layer_1
6
CONTINUOUS
62
3
10
114.508
20
77
40
6.5
50
0
51
90
0
LINE
8
Layer_1
6
CONTINUOUS
62
3
10
114.508
20
83.5
11
91.7868
21
83.5
0
ARC
8
Layer_1
6
CONTINUOUS
62
3
10
91.7868
20
92
40
8.5
50
237.769
51
270
0
LINE
8
Layer_1
6
CONTINUOUS
62
3
10
87.2534
20
84.8098
11
79.3333
21
89.8033
0
ARC
8
Layer_1
6
CONTINUOUS
62
3
10
70
20
75
40
17.5
50
57.769
51
122.231
0
LINE
8
Layer_1
6
CONTINUOUS
62
3
10
60.6667
20
89.8033
11
52.7466
21
84.8098
0
ARC
8
Layer_1
6
CONTINUOUS
62
3
10
48.2132
20
92
40
8.5
50
270
51
302.231
0
LINE
8
Layer_1
6
CONTINUOUS
62
3
10
48.2132
20
83.5
11
35
21
83.5
0
ARC
8
Layer_1
6
CONTINUOUS
62
7
10
58.1206
20
75
40
1.5
50
96.6789
51
263.321
0
ARC
8
Layer_1
6
CONTINUOUS
62
7
10
81.8794
20
75
40
1.5
50
276.679
51
83.3211
0
LINE
8
Layer_1
6
CONTINUOUS
62
7
10
82.0539
20
73.5102
11
75.5621
21
72.75
0
LINE
8
Layer_1
6
CONTINUOUS
62
7
10
64.4379
20
72.75
11
57.9461
21
73.5102
0
LINE
8
Layer_1
6
CONTINUOUS
62
7
10
82.0539
20
76.4898
11
75.5621
21
77.25
0
LINE
8
Layer_1
6
CONTINUOUS
62
7
10
57.9461
20
76.4898
11
64.4379
21
77.25
0
LINE
8
Layer_1
6
CONTINUOUS
62
1
10
64.589
20
74.0412
11
58.0973
21
74.8014
0
ARC
8
Layer_1
6
CONTINUOUS
62
1
10
58.1206
20
75
40
0.2
50
96.6789
51
263.321
0
LINE
8
Layer_1
6
CONTINUOUS
62
1
10
58.0973
20
75.1986
11
64.589
21
75.9588
0
ARC
8
Layer_1
6
CONTINUOUS
62
1
10
64.4379
20
77.25
40
1.3
50
276.679
51
337.976
0
ARC
8
Layer_1
6
CONTINUOUS
62
1
10
70
20
75
40
4.7
50
22.0243
51
157.976
0
ARC
8
Layer_1
6
CONTINUOUS
62
1
10
75.5621
20
77.25
40
1.3
50
202.024
51
263.321
0
LINE
8
Layer_1
6
CONTINUOUS
62
1
10
75.411
20
75.9588
11
81.9027
21
75.1986
0
ARC
8
Layer_1
6
CONTINUOUS
62
1
10
81.8794
20
75
40
0.2
50
276.679
51
83.3211
0
LINE
8
Layer_1
6
CONTINUOUS
62
1
10
81.9027
20
74.8014
11
75.411
21
74.0412
0
ARC
8
Layer_1
6
CONTINUOUS
62
1
10
75.5621
20
72.75
40
1.3
50
96.6789
51
157.976
0
ARC
8
Layer_1
6
CONTINUOUS
62
1
10
70
20
75
40
4.7
50
202.024
51
337.976
0
ARC
8
Layer_1
6
CONTINUOUS
62
1
10
64.4379
20
72.75
40
1.3
50
22.0243
51
83.3211
0
ENDSEC
0
EOF
