0
SECTION
2
HEADER
9
$ANGDIR
70
0
9
$CHAMFERA
40
10
9
$CHAMFERB
40
10
9
$CLAYER
8
Layer_1
9
$EXTMAX
10
119.508
20
91
9
$EXTMIN
10
20.4924
20
19
9
$LIMMAX
10
420
20
297
9
$LIMMIN
10
0
20
0
9
$LTSCALE
40
10
9
$PLINEGEN
70
0
9
$TEXTSIZE
40
20
9
$GRIDUNIT
10
10
20
10
9
$SNAPUNIT
10
5
20
5
0
ENDSEC
0
SECTION
2
TABLES
0
TABLE
2
STYLE
70
1
0
STYLE
2
STANDARD
70
0
40
0
41
1
50
0
71
0
42
0.2
3
txt
4

0
ENDTAB
0
TABLE
2
LTYPE
70
14
0
LTYPE
2
CONTINUOUS
70
0
3
Solid line
72
65
73
0
40
0
0
LTYPE
2
DOT
70
0
3
............................................
72
65
73
2
40
0.25
49
0
49
-0.25
0
LTYPE
2
HIDDEN
70
0
3
_ _ _ _ _ _ _ _ _ _ _ _ _ _ _ _ _ _ _ _ _ _ 
72
65
73
2
40
0.375
49
0.25
49
-0.125
0
LTYPE
2
TSLONGDASH
70
0
3
__ __ __ __ __ __ __ __ __ __ __ __ __ __ _ 
72
65
73
2
40
1.28
49
1
49
-0.28
0
LTYPE
2
TSDASHDOT
70
0
3
______ . ______ . ______ . ______ . ______ .
72
65
73
4
40
1.28
49
1
49
-0.14
49
0
49
-0.14
0
LTYPE
2
TSCENTER
70
0
3
______ _ ______ _ ______ _ ______ _ ______ _
72
65
73
4
40
2
49
1.5
49
-0.18
49
0.14
49
-0.18
0
LTYPE
2
TSPHANTOM
70
0
3
_____ _ _ _____ _ _ _____ _ _ _____ _ _ ____
72
65
73
6
40
2.5
49
1.63
49
-0.19
49
0.15
49
-0.19
49
0.15
49
-0.19
0
LTYPE
2
DASHED
70
0
3
__ __ __ __ __ __ __ __ __ __ __ __ __ __ __
72
65
73
2
40
0.75
49
0.5
49
-0.25
0
LTYPE
2
CENTER
70
0
3
____ _ ____ _ ____ _ ____ _ ____ _ ____ _ __
72
65
73
4
40
2
49
1.25
49
-0.25
49
0.25
49
-0.25
0
LTYPE
2
PHANTOM
70
0
3
_____ _ _ _____ _ _ _____ _ _ _____ _ _ ____
72
65
73
6
40
2.5
49
1.25
49
-0.25
49
0.25
49
-0.25
49
0.25
49
-0.25
0
LTYPE
2
DASHDOT
70
0
3
__ . __ . __ . __ . __ . __ . __ . __ . __ .
72
65
73
4
40
1
49
0.5
49
-0.25
49
0
49
-0.25
0
LTYPE
2
BORDER
70
0
3
__ __ . __ __ . __ __ . __ __ . __ __ . __ _
72
65
73
6
40
1.75
49
0.5
49
-0.25
49
0.5
49
-0.25
49
0
49
-0.25
0
LTYPE
2
DIVIDE
70
0
3
__ . . __ . . __ . . __ . . __ . . __ . . __
72
65
73
6
40
1.25
49
0.5
49
-0.25
49
0
49
-0.25
49
0
49
-0.25
0
ENDTAB
0
TABLE
2
LAYER
70
3
0
LAYER
2
Layer_1
70
0
62
7
6
CONTINUOUS
0
LAYER
2
Layer_2
70
0
62
7
6
CONTINUOUS
0
LAYER
2
Layer_3
70
0
62
7
6
CONTINUOUS
0
ENDTAB
0
ENDSEC
0
SECTION
2
ENTITIES
0
POLYLINE
8
Layer_1
6
CONTINUOUS
62
7
66
1
10
0
20
0
70
128
40
0
41
0
0
VERTEX
8
Layer_1
6
CONTINUOUS
62
7
10
64.4379
20
72.75
0
VERTEX
8
Layer_1
6
CONTINUOUS
62
7
10
65.1974
20
71.4035
0
VERTEX
8
Layer_1
6
CONTINUOUS
62
7
10
66.2758
20
70.2957
0
VERTEX
8
Layer_1
6
CONTINUOUS
62
7
10
67.6014
20
69.5003
0
VERTEX
8
Layer_1
6
CONTINUOUS
62
7
10
69.0863
20
69.07
0
VERTEX
8
Layer_1
6
CONTINUOUS
62
7
10
70.6318
20
69.0334
0
VERTEX
8
Layer_1
6
CONTINUOUS
62
7
10
72.1354
20
69.3928
0
VERTEX
8
Layer_1
6
CONTINUOUS
62
7
10
73.4972
20
70.1246
0
VERTEX
8
Layer_1
6
CONTINUOUS
62
7
10
74.6268
20
71.18
0
VERTEX
8
Layer_1
6
CONTINUOUS
62
7
10
75.4493
20
72.489
0
VERTEX
8
Layer_1
6
CONTINUOUS
62
7
10
75.5621
20
72.75
0
SEQEND
0
POLYLINE
8
Layer_1
6
CONTINUOUS
62
7
66
1
10
0
20
0
70
128
40
0
41
0
0
VERTEX
8
Layer_1
6
CONTINUOUS
62
7
10
75.5621
20
77.25
0
VERTEX
8
Layer_1
6
CONTINUOUS
62
7
10
74.8026
20
78.5965
0
VERTEX
8
Layer_1
6
CONTINUOUS
62
7
10
73.7242
20
79.7043
0
VERTEX
8
Layer_1
6
CONTINUOUS
62
7
10
72.3986
20
80.4997
0
VERTEX
8
Layer_1
6
CONTINUOUS
62
7
10
70.9137
20
80.93
0
VERTEX
8
Layer_1
6
CONTINUOUS
62
7
10
69.3682
20
80.9666
0
VERTEX
8
Layer_1
6
CONTINUOUS
62
7
10
67.8646
20
80.6072
0
VERTEX
8
Layer_1
6
CONTINUOUS
62
7
10
66.5028
20
79.8754
0
VERTEX
8
Layer_1
6
CONTINUOUS
62
7
10
65.3732
20
78.82
0
VERTEX
8
Layer_1
6
CONTINUOUS
62
7
10
64.5507
20
77.511
0
VERTEX
8
Layer_1
6
CONTINUOUS
62
7
10
64.4379
20
77.25
0
SEQEND
0
POLYLINE
8
Layer_1
6
CONTINUOUS
62
7
66
1
10
0
20
0
70
128
40
0
41
0
0
VERTEX
8
Layer_1
6
CONTINUOUS
62
7
10
61.4667
20
61.4655
0
VERTEX
8
Layer_1
6
CONTINUOUS
62
7
10
63.7048
20
60.2905
0
VERTEX
8
Layer_1
6
CONTINUOUS
62
7
10
66.1001
20
59.4826
0
VERTEX
8
Layer_1
6
CONTINUOUS
62
7
10
68.5927
20
59.062
0
VERTEX
8
Layer_1
6
CONTINUOUS
62
7
10
71.1204
20
59.0393
0
VERTEX
8
Layer_1
6
CONTINUOUS
62
7
10
73.6202
20
59.4149
0
VERTEX
8
Layer_1
6
CONTINUOUS
62
7
10
76.0296
20
60.1796
0
VERTEX
8
Layer_1
6
CONTINUOUS
62
7
10
78.2885
20
61.3142
0
VERTEX
8
Layer_1
6
CONTINUOUS
62
7
10
78.5333
20
61.4655
0
SEQEND
0
POLYLINE
8
Layer_1
6
CONTINUOUS
62
7
66
1
10
0
20
0
70
128
40
0
41
0
0
VERTEX
8
Layer_1
6
CONTINUOUS
62
7
10
78.5333
20
88.5345
0
VERTEX
8
Layer_1
6
CONTINUOUS
62
7
10
76.2952
20
89.7095
0
VERTEX
8
Layer_1
6
CONTINUOUS
62
7
10
73.8999
20
90.5174
0
VERTEX
8
Layer_1
6
CONTINUOUS
62
7
10
71.4073
20
90.938
0
VERTEX
8
Layer_1
6
CONTINUOUS
62
7
10
68.8796
20
90.9607
0
VERTEX
8
Layer_1
6
CONTINUOUS
62
7
10
66.3798
20
90.5851
0
VERTEX
8
Layer_1
6
CONTINUOUS
62
7
10
63.9704
20
89.8204
0
VERTEX
8
Layer_1
6
CONTINUOUS
62
7
10
61.7115
20
88.6858
0
VERTEX
8
Layer_1
6
CONTINUOUS
62
7
10
61.4667
20
88.5345
0
SEQEND
0
LINE
8
Layer_1
6
CONTINUOUS
62
7
10
91.7868
20
82
11
114.508
21
82
0
LINE
8
Layer_1
6
CONTINUOUS
62
7
10
48.2132
20
82
11
25.4924
21
82
0
LINE
8
Layer_1
6
CONTINUOUS
62
7
10
114.508
20
68
11
91.7868
21
68
0
LINE
8
Layer_1
6
CONTINUOUS
62
7
10
119.508
20
77
11
119.508
21
73
0
LINE
8
Layer_1
6
CONTINUOUS
62
7
10
20.4924
20
77
11
20.4924
21
73
0
LINE
8
Layer_1
6
CONTINUOUS
62
7
10
78.5333
20
88.5345
11
86.4534
21
83.5409
0
LINE
8
Layer_1
6
CONTINUOUS
62
7
10
78.5333
20
61.4655
11
86.4534
21
66.4591
0
LINE
8
Layer_1
6
CONTINUOUS
62
7
10
61.4667
20
88.5345
11
53.5466
21
83.5409
0
LINE
8
Layer_1
6
CONTINUOUS
62
7
10
61.4667
20
61.4655
11
53.5466
21
66.4591
0
POLYLINE
8
Layer_1
6
CONTINUOUS
62
7
66
1
10
0
20
0
70
128
40
0
41
0
0
VERTEX
8
Layer_1
6
CONTINUOUS
62
7
10
86.4534
20
83.5409
0
VERTEX
8
Layer_1
6
CONTINUOUS
62
7
10
88.2411
20
82.6497
0
VERTEX
8
Layer_1
6
CONTINUOUS
62
7
10
90.1702
20
82.1315
0
VERTEX
8
Layer_1
6
CONTINUOUS
62
7
10
91.7868
20
82
0
SEQEND
0
POLYLINE
8
Layer_1
6
CONTINUOUS
62
7
66
1
10
0
20
0
70
128
40
0
41
0
0
VERTEX
8
Layer_1
6
CONTINUOUS
62
7
10
91.7868
20
68
0
VERTEX
8
Layer_1
6
CONTINUOUS
62
7
10
89.7993
20
67.8005
0
VERTEX
8
Layer_1
6
CONTINUOUS
62
7
10
87.8911
20
67.21
0
VERTEX
8
Layer_1
6
CONTINUOUS
62
7
10
86.4534
20
66.4591
0
SEQEND
0
LINE
8
Layer_1
6
CONTINUOUS
62
7
10
25.4924
20
68
11
48.2132
21
68
0
POLYLINE
8
Layer_1
6
CONTINUOUS
62
7
66
1
10
0
20
0
70
128
40
0
41
0
0
VERTEX
8
Layer_1
6
CONTINUOUS
62
7
10
48.2132
20
82
0
VERTEX
8
Layer_1
6
CONTINUOUS
62
7
10
50.2007
20
82.1995
0
VERTEX
8
Layer_1
6
CONTINUOUS
62
7
10
52.1089
20
82.79
0
VERTEX
8
Layer_1
6
CONTINUOUS
62
7
10
53.5466
20
83.5409
0
SEQEND
0
POLYLINE
8
Layer_1
6
CONTINUOUS
62
7
66
1
10
0
20
0
70
128
40
0
41
0
0
VERTEX
8
Layer_1
6
CONTINUOUS
62
7
10
48.2132
20
68
0
VERTEX
8
Layer_1
6
CONTINUOUS
62
7
10
50.2007
20
67.8005
0
VERTEX
8
Layer_1
6
CONTINUOUS
62
7
10
52.1089
20
67.21
0
VERTEX
8
Layer_1
6
CONTINUOUS
62
7
10
53.5466
20
66.4591
0
SEQEND
0
POLYLINE
8
Layer_1
6
CONTINUOUS
62
7
66
1
10
0
20
0
70
128
40
0
41
0
0
VERTEX
8
Layer_1
6
CONTINUOUS
62
7
10
20.4924
20
77
0
VERTEX
8
Layer_1
6
CONTINUOUS
62
7
10
20.6628
20
78.2941
0
VERTEX
8
Layer_1
6
CONTINUOUS
62
7
10
21.1623
20
79.5
0
VERTEX
8
Layer_1
6
CONTINUOUS
62
7
10
21.9569
20
80.5355
0
VERTEX
8
Layer_1
6
CONTINUOUS
62
7
10
22.9924
20
81.3301
0
VERTEX
8
Layer_1
6
CONTINUOUS
62
7
10
24.1983
20
81.8296
0
VERTEX
8
Layer_1
6
CONTINUOUS
62
7
10
25.4924
20
82
0
SEQEND
0
POLYLINE
8
Layer_1
6
CONTINUOUS
62
7
66
1
10
0
20
0
70
128
40
0
41
0
0
VERTEX
8
Layer_1
6
CONTINUOUS
62
7
10
25.4924
20
68
0
VERTEX
8
Layer_1
6
CONTINUOUS
62
7
10
24.1983
20
68.1704
0
VERTEX
8
Layer_1
6
CONTINUOUS
62
7
10
22.9924
20
68.6699
0
VERTEX
8
Layer_1
6
CONTINUOUS
62
7
10
21.9569
20
69.4645
0
VERTEX
8
Layer_1
6
CONTINUOUS
62
7
10
21.1623
20
70.5
0
VERTEX
8
Layer_1
6
CONTINUOUS
62
7
10
20.6628
20
71.7059
0
VERTEX
8
Layer_1
6
CONTINUOUS
62
7
10
20.4924
20
73
0
SEQEND
0
POLYLINE
8
Layer_1
6
CONTINUOUS
62
7
66
1
10
0
20
0
70
128
40
0
41
0
0
VERTEX
8
Layer_1
6
CONTINUOUS
62
7
10
114.508
20
68
0
VERTEX
8
Layer_1
6
CONTINUOUS
62
7
10
115.802
20
68.1704
0
VERTEX
8
Layer_1
6
CONTINUOUS
62
7
10
117.008
20
68.6699
0
VERTEX
8
Layer_1
6
CONTINUOUS
62
7
10
118.043
20
69.4645
0
VERTEX
8
Layer_1
6
CONTINUOUS
62
7
10
118.838
20
70.5
0
VERTEX
8
Layer_1
6
CONTINUOUS
62
7
10
119.337
20
71.7059
0
VERTEX
8
Layer_1
6
CONTINUOUS
62
7
10
119.508
20
73
0
SEQEND
0
POLYLINE
8
Layer_1
6
CONTINUOUS
62
7
66
1
10
0
20
0
70
128
40
0
41
0
0
VERTEX
8
Layer_1
6
CONTINUOUS
62
7
10
119.508
20
77
0
VERTEX
8
Layer_1
6
CONTINUOUS
62
7
10
119.337
20
78.2941
0
VERTEX
8
Layer_1
6
CONTINUOUS
62
7
10
118.838
20
79.5
0
VERTEX
8
Layer_1
6
CONTINUOUS
62
7
10
118.043
20
80.5355
0
VERTEX
8
Layer_1
6
CONTINUOUS
62
7
10
117.008
20
81.3301
0
VERTEX
8
Layer_1
6
CONTINUOUS
62
7
10
115.802
20
81.8296
0
VERTEX
8
Layer_1
6
CONTINUOUS
62
7
10
114.508
20
82
0
SEQEND
0
POLYLINE
8
Layer_1
6
CONTINUOUS
62
7
66
1
10
0
20
0
70
128
40
0
41
0
0
VERTEX
8
Layer_1
6
CONTINUOUS
62
7
10
61.4667
20
21.4655
0
VERTEX
8
Layer_1
6
CONTINUOUS
62
7
10
63.7048
20
20.2905
0
VERTEX
8
Layer_1
6
CONTINUOUS
62
7
10
66.1001
20
19.4826
0
VERTEX
8
Layer_1
6
CONTINUOUS
62
7
10
68.5927
20
19.062
0
VERTEX
8
Layer_1
6
CONTINUOUS
62
7
10
71.1204
20
19.0393
0
VERTEX
8
Layer_1
6
CONTINUOUS
62
7
10
73.6202
20
19.4149
0
VERTEX
8
Layer_1
6
CONTINUOUS
62
7
10
76.0296
20
20.1796
0
VERTEX
8
Layer_1
6
CONTINUOUS
62
7
10
78.2885
20
21.3142
0
VERTEX
8
Layer_1
6
CONTINUOUS
62
7
10
78.5333
20
21.4655
0
SEQEND
0
POLYLINE
8
Layer_1
6
CONTINUOUS
62
7
66
1
10
0
20
0
70
128
40
0
41
0
0
VERTEX
8
Layer_1
6
CONTINUOUS
62
7
10
78.5333
20
48.5345
0
VERTEX
8
Layer_1
6
CONTINUOUS
62
7
10
76.2952
20
49.7095
0
VERTEX
8
Layer_1
6
CONTINUOUS
62
7
10
73.8999
20
50.5174
0
VERTEX
8
Layer_1
6
CONTINUOUS
62
7
10
71.4073
20
50.938
0
VERTEX
8
Layer_1
6
CONTINUOUS
62
7
10
68.8796
20
50.9607
0
VERTEX
8
Layer_1
6
CONTINUOUS
62
7
10
66.3798
20
50.5851
0
VERTEX
8
Layer_1
6
CONTINUOUS
62
7
10
63.9704
20
49.8204
0
VERTEX
8
Layer_1
6
CONTINUOUS
62
7
10
61.7115
20
48.6858
0
VERTEX
8
Layer_1
6
CONTINUOUS
62
7
10
61.4667
20
48.5345
0
SEQEND
0
LINE
8
Layer_1
6
CONTINUOUS
62
7
10
91.7868
20
42
11
114.508
21
42
0
LINE
8
Layer_1
6
CONTINUOUS
62
7
10
48.2132
20
42
11
25.4924
21
42
0
LINE
8
Layer_1
6
CONTINUOUS
62
7
10
114.508
20
28
11
91.7868
21
28
0
LINE
8
Layer_1
6
CONTINUOUS
62
7
10
119.508
20
37
11
119.508
21
33
0
LINE
8
Layer_1
6
CONTINUOUS
62
7
10
20.4924
20
37
11
20.4924
21
33
0
LINE
8
Layer_1
6
CONTINUOUS
62
7
10
78.5333
20
48.5345
11
86.4534
21
43.5409
0
LINE
8
Layer_1
6
CONTINUOUS
62
7
10
78.5333
20
21.4655
11
86.4534
21
26.4591
0
LINE
8
Layer_1
6
CONTINUOUS
62
7
10
61.4667
20
48.5345
11
53.5466
21
43.5409
0
LINE
8
Layer_1
6
CONTINUOUS
62
7
10
61.4667
20
21.4655
11
53.5466
21
26.4591
0
POLYLINE
8
Layer_1
6
CONTINUOUS
62
7
66
1
10
0
20
0
70
128
40
0
41
0
0
VERTEX
8
Layer_1
6
CONTINUOUS
62
7
10
86.4534
20
43.5409
0
VERTEX
8
Layer_1
6
CONTINUOUS
62
7
10
88.2411
20
42.6497
0
VERTEX
8
Layer_1
6
CONTINUOUS
62
7
10
90.1702
20
42.1315
0
VERTEX
8
Layer_1
6
CONTINUOUS
62
7
10
91.7868
20
42
0
SEQEND
0
POLYLINE
8
Layer_1
6
CONTINUOUS
62
7
66
1
10
0
20
0
70
128
40
0
41
0
0
VERTEX
8
Layer_1
6
CONTINUOUS
62
7
10
91.7868
20
28
0
VERTEX
8
Layer_1
6
CONTINUOUS
62
7
10
89.7993
20
27.8005
0
VERTEX
8
Layer_1
6
CONTINUOUS
62
7
10
87.8911
20
27.21
0
VERTEX
8
Layer_1
6
CONTINUOUS
62
7
10
86.4534
20
26.4591
0
SEQEND
0
LINE
8
Layer_1
6
CONTINUOUS
62
7
10
25.4924
20
28
11
48.2132
21
28
0
POLYLINE
8
Layer_1
6
CONTINUOUS
62
7
66
1
10
0
20
0
70
128
40
0
41
0
0
VERTEX
8
Layer_1
6
CONTINUOUS
62
7
10
48.2132
20
42
0
VERTEX
8
Layer_1
6
CONTINUOUS
62
7
10
50.2007
20
42.1995
0
VERTEX
8
Layer_1
6
CONTINUOUS
62
7
10
52.1089
20
42.79
0
VERTEX
8
Layer_1
6
CONTINUOUS
62
7
10
53.5466
20
43.5409
0
SEQEND
0
POLYLINE
8
Layer_1
6
CONTINUOUS
62
7
66
1
10
0
20
0
70
128
40
0
41
0
0
VERTEX
8
Layer_1
6
CONTINUOUS
62
7
10
48.2132
20
28
0
VERTEX
8
Layer_1
6
CONTINUOUS
62
7
10
50.2007
20
27.8005
0
VERTEX
8
Layer_1
6
CONTINUOUS
62
7
10
52.1089
20
27.21
0
VERTEX
8
Layer_1
6
CONTINUOUS
62
7
10
53.5466
20
26.4591
0
SEQEND
0
POLYLINE
8
Layer_1
6
CONTINUOUS
62
7
66
1
10
0
20
0
70
128
40
0
41
0
0
VERTEX
8
Layer_1
6
CONTINUOUS
62
7
10
20.4924
20
37
0
VERTEX
8
Layer_1
6
CONTINUOUS
62
7
10
20.6628
20
38.2941
0
VERTEX
8
Layer_1
6
CONTINUOUS
62
7
10
21.1623
20
39.5
0
VERTEX
8
Layer_1
6
CONTINUOUS
62
7
10
21.9569
20
40.5355
0
VERTEX
8
Layer_1
6
CONTINUOUS
62
7
10
22.9924
20
41.3301
0
VERTEX
8
Layer_1
6
CONTINUOUS
62
7
10
24.1983
20
41.8296
0
VERTEX
8
Layer_1
6
CONTINUOUS
62
7
10
25.4924
20
42
0
SEQEND
0
POLYLINE
8
Layer_1
6
CONTINUOUS
62
7
66
1
10
0
20
0
70
128
40
0
41
0
0
VERTEX
8
Layer_1
6
CONTINUOUS
62
7
10
25.4924
20
28
0
VERTEX
8
Layer_1
6
CONTINUOUS
62
7
10
24.1983
20
28.1704
0
VERTEX
8
Layer_1
6
CONTINUOUS
62
7
10
22.9924
20
28.6699
0
VERTEX
8
Layer_1
6
CONTINUOUS
62
7
10
21.9569
20
29.4645
0
VERTEX
8
Layer_1
6
CONTINUOUS
62
7
10
21.1623
20
30.5
0
VERTEX
8
Layer_1
6
CONTINUOUS
62
7
10
20.6628
20
31.7059
0
VERTEX
8
Layer_1
6
CONTINUOUS
62
7
10
20.4924
20
33
0
SEQEND
0
POLYLINE
8
Layer_1
6
CONTINUOUS
62
7
66
1
10
0
20
0
70
128
40
0
41
0
0
VERTEX
8
Layer_1
6
CONTINUOUS
62
7
10
114.508
20
28
0
VERTEX
8
Layer_1
6
CONTINUOUS
62
7
10
115.802
20
28.1704
0
VERTEX
8
Layer_1
6
CONTINUOUS
62
7
10
117.008
20
28.6699
0
VERTEX
8
Layer_1
6
CONTINUOUS
62
7
10
118.043
20
29.4645
0
VERTEX
8
Layer_1
6
CONTINUOUS
62
7
10
118.838
20
30.5
0
VERTEX
8
Layer_1
6
CONTINUOUS
62
7
10
119.337
20
31.7059
0
VERTEX
8
Layer_1
6
CONTINUOUS
62
7
10
119.508
20
33
0
SEQEND
0
POLYLINE
8
Layer_1
6
CONTINUOUS
62
7
66
1
10
0
20
0
70
128
40
0
41
0
0
VERTEX
8
Layer_1
6
CONTINUOUS
62
7
10
119.508
20
37
0
VERTEX
8
Layer_1
6
CONTINUOUS
62
7
10
119.337
20
38.2941
0
VERTEX
8
Layer_1
6
CONTINUOUS
62
7
10
118.838
20
39.5
0
VERTEX
8
Layer_1
6
CONTINUOUS
62
7
10
118.043
20
40.5355
0
VERTEX
8
Layer_1
6
CONTINUOUS
62
7
10
117.008
20
41.3301
0
VERTEX
8
Layer_1
6
CONTINUOUS
62
7
10
115.802
20
41.8296
0
VERTEX
8
Layer_1
6
CONTINUOUS
62
7
10
114.508
20
42
0
SEQEND
0
CIRCLE
8
Layer_1
6
CONTINUOUS
62
7
10
70
20
35
40
3
0
POLYLINE
8
Layer_1
6
CONTINUOUS
62
7
66
1
10
0
20
0
70
128
40
0
41
0
0
VERTEX
8
Layer_1
6
CONTINUOUS
62
7
10
57.9461
20
76.4898
0
VERTEX
8
Layer_1
6
CONTINUOUS
62
7
10
57.5665
20
76.3939
0
VERTEX
8
Layer_1
6
CONTINUOUS
62
7
10
57.2246
20
76.203
0
VERTEX
8
Layer_1
6
CONTINUOUS
62
7
10
56.9438
20
75.9301
0
VERTEX
8
Layer_1
6
CONTINUOUS
62
7
10
56.7431
20
75.5938
0
VERTEX
8
Layer_1
6
CONTINUOUS
62
7
10
56.6364
20
75.2171
0
VERTEX
8
Layer_1
6
CONTINUOUS
62
7
10
56.6308
20
74.8255
0
VERTEX
8
Layer_1
6
CONTINUOUS
62
7
10
56.7267
20
74.4459
0
VERTEX
8
Layer_1
6
CONTINUOUS
62
7
10
56.9176
20
74.104
0
VERTEX
8
Layer_1
6
CONTINUOUS
62
7
10
57.1905
20
73.8232
0
VERTEX
8
Layer_1
6
CONTINUOUS
62
7
10
57.5268
20
73.6225
0
VERTEX
8
Layer_1
6
CONTINUOUS
62
7
10
57.9035
20
73.5158
0
VERTEX
8
Layer_1
6
CONTINUOUS
62
7
10
57.9461
20
73.5102
0
SEQEND
0
POLYLINE
8
Layer_1
6
CONTINUOUS
62
7
66
1
10
0
20
0
70
128
40
0
41
0
0
VERTEX
8
Layer_1
6
CONTINUOUS
62
7
10
82.0539
20
73.5102
0
VERTEX
8
Layer_1
6
CONTINUOUS
62
7
10
82.4335
20
73.6061
0
VERTEX
8
Layer_1
6
CONTINUOUS
62
7
10
82.7754
20
73.797
0
VERTEX
8
Layer_1
6
CONTINUOUS
62
7
10
83.0562
20
74.0699
0
VERTEX
8
Layer_1
6
CONTINUOUS
62
7
10
83.2569
20
74.4062
0
VERTEX
8
Layer_1
6
CONTINUOUS
62
7
10
83.3636
20
74.7829
0
VERTEX
8
Layer_1
6
CONTINUOUS
62
7
10
83.3692
20
75.1745
0
VERTEX
8
Layer_1
6
CONTINUOUS
62
7
10
83.2733
20
75.5541
0
VERTEX
8
Layer_1
6
CONTINUOUS
62
7
10
83.0824
20
75.896
0
VERTEX
8
Layer_1
6
CONTINUOUS
62
7
10
82.8095
20
76.1768
0
VERTEX
8
Layer_1
6
CONTINUOUS
62
7
10
82.4732
20
76.3775
0
VERTEX
8
Layer_1
6
CONTINUOUS
62
7
10
82.0965
20
76.4842
0
VERTEX
8
Layer_1
6
CONTINUOUS
62
7
10
82.0539
20
76.4898
0
SEQEND
0
LINE
8
Layer_1
6
CONTINUOUS
62
7
10
82.0539
20
73.5102
11
75.5621
21
72.75
0
LINE
8
Layer_1
6
CONTINUOUS
62
7
10
64.4379
20
72.75
11
57.9461
21
73.5102
0
LINE
8
Layer_1
6
CONTINUOUS
62
7
10
82.0539
20
76.4898
11
75.5621
21
77.25
0
LINE
8
Layer_1
6
CONTINUOUS
62
7
10
57.9461
20
76.4898
11
64.4379
21
77.25
0
ENDSEC
0
EOF
